Broken Bricks - White Stripes guitar tablature and lyrics
HOME I BROWSE BY ALBUM I BROWSE BY SONG I SEARCH LYRICS I EQUIPMENT / TECHNIQUE I TABLATURE KEY I DARK NIGHT BLUES I CONTACT

 -----------------------------------
| In The Cold, Cold Night           |
| Words and Music by Jack White     |
| Tabbed by Patrick Ferris          |  
 -----------------------------------

 -------------------------------------------------------------------------------------------------
| Tab Definitions:										  |
|  "C": x3x5xx 											  |
|  "D": x5x7xx											  |
|  "F": x|8|x|10|x|x (133xxx in BRIDGE 2)							  |
|  "G": x|10|x|12|x|x (355xxx in BRIDGE 2)							  |
|  "A": x|12|x|14|x|x (577xxx in BRIDGE 2)						          |
|   A7: x02223											  |
|    /: Slide to note									  	  |
|   (): Not played in the given verse, but in following verses					  |
|    x: Heavily muted note									  |
 -------------------------------------------------------------------------------------------------

I'm afraid the only way to play the underlying organ progression (without an organ) is with a bass or octave divider.
I tabbed it as a bass line in verses, and the rest just follows the bass note of the guitar.

INTRO: Played 4x
   C D       D F        F  G        G  A
e|-----------------------------------------
B|-----------------------------------------
G|-5/7--x-x--7/10--x-x--10/12--x-x--12/14--
D|-----------------------------------------
A|-3/5--x-x--5/8---x-x--8/10---x-x--10/12--
E|-----------------------------------------

BASS LINE: Enters after 1x of INTRO
Octave divider (down two octaves, or, if that is not an option, played on the low string in Drop D tuning)
e|-------------
B|-------------
G|-------------
D|-0--3--5--7--
A|-------------
E|-------------

VERSE 1:
    C/D       D / F           F / G      G/A
	I saw you standing in the corner
    C/D   (D / F)      F/G       G/A
	On the edge of a burning light
    C/D       D / F           F / G      G/A
	I saw you standing in the corner

CHORUS:
e|-----------------------
B|-----------------------
G|-----------------------
D|-----------------------
A|-----------------------
E|-3-5--------------5-3--
	Come to me again
                          C/D   D/F F/G
	In the cold, cold night
           G / A          C/D   D/F F/G G/A
	In the cold, cold night

VERSE 2:
You make me feel a little older
Like a full grown woman might
But when you're gonna I grow colder

CHORUS

BRIDGE 1:
    C/D                      C/D
	I hear you walking by my front door
    C/D                        C / D
	I hear the creaking of the kitchen floor
    D/F                    D /  F
	I don't care what other people say
    C/D                      C/D
	I'm going to love you anyway

CHORUS

ORGAN: Over INTRO
Played 4x:
   D5   F5  G5  A5
e|------------------
B|------------------
G|---7--------------
D|-7----10--12--14--
A|-5----8---10--12--
E|------------------

   G5  A5       G5
e|------------------
B|------------------
G|------------------
D|-12--14---14--12--
A|-10--12---12--10--
E|------------------

Played 2x:
   D5   F5  G5  A5
e|------------------
B|------------------
G|---7--------------
D|-7----10--12--14--
A|-5----8---10--12--
E|------------------

VERSE 3:
I can't stand it any longer
I need the fuel to make my fire bright
So don't fight it any longer

CHORUS

BRIDGE 2:
      A             G       E   A7
And I know that you feel it too
        A          G    E    A7
When my skin turns into glue
         A              G      E    A7
You will know that it's warm inside
                G        F                  C/D  D/F F/G
And you'll come run to me in the cold, cold night
   G / A          C/D   D/F F/G 
In the cold, cold night
   G / A          C/D   D/F F/G
In the cold, cold night
   G / A          C
In the cold, cold night

e|-7--
B|----
G|----
D|----
A|----
E|----